Select Language Here

English French German Spain Italian Dutch

Russian Portuguese Japanese Korean Arabic Chinese Simplified
by : BTF

Belajar Gitar - Teknik Picking

Untuk memainkan gitar elektrik, lebih banyak pemain gitar yang menggunakan pick untuk memetik gitar dibandingkan dengan menggunakan jari. Beberapa contoh bentuk pick gitar :

Tidak ada standar yang baku dalam memegang pick gitar ini. Namun kebanyakan pemain gitar memegang pick gitar dengan menggunakan ibu jari dan telunjuk seperti gambar berikut :
Kemudian untuk memetik gitar dengan pick, harus dilakukan dengan 2 arah, ke atas dan ke bawah seperti pada gambar di atas. Mengapa ? Karena jika memetik dilakukan satu arah, misalnya ke bawah saja, akan jauh lebih lambat dibandingkan memetik dengan dua arah.
Sebagai perbandingan, cobalah untuk memetik salah satu senar 8 kali petik dengan petikan satu arah. Kemudian coba lagi memetik salah satu senar 8 kali petik dengan petikan 2 arah. Akan terlihat perbedaan kecepatannya bukan ?
Untuk pelajaran kita disini, digunakan tablatur gitar. Bentuk tablatur gitar adalah sebagai berikut :
|---------------------------------|---------------------------------senar 1
|---------------------------------|---------------------------------senar 2
|---------------------------------|---------------------------------senar 3
|---------------------------------|---------------------------------senar 4
|---------------------------------|---------------------------------senar 5
|---------------------------------|---------------------------------senar 6

Tablatur gitar ini akan diisi dengan angka-angka yang menunjukkan fret gitar nomor berapa yang harus ditekan dengan jari tangan kiri, contohnya sebagai berikut :
|-0--0--0--0--3--3--3--3--4--4--4--4--7--7--7--7-|-8--8--8--8--11--11--11--11
|------------------------------------------------|--------------------------
|------------------------------------------------|--------------------------
|------------------------------------------------|--------------------------
|------------------------------------------------|--------------------------
|------------------------------------------------|--------------------------
Pada gambar tersebut di atas, angka 0 menunjukkan fret 0 (senar lepas) pada senar 1, fret 3 pada senar 1, fret 4 pada senar 1, dst. Ruang antar garis vertikal (|) dengan garis vertikal berikutnya menunjukkan satu bar, yang menunjukkan 4 ketukan. Latihan 1 Mari mulai latihan kita. Latihlah memetik gitar dua arah dengan menggunakan pick pada tablatur berikut :
d petik ke bawah (down)
u petik ke atas (up)
d u d u d u dst
|-0--0--0--0--1--1--1--1--2--2--2--2--3--3--3--3-|
|------------------------------------------------|
|------------------------------------------------|
|------------------------------------------------|
|------------------------------------------------|
|------------------------------------------------|

|------------------------------------------------|
|-0--0--0--0--1--1--1--1--2--2--2--2--3--3--3--3-|
|------------------------------------------------|
|------------------------------------------------|
|------------------------------------------------|
|------------------------------------------------|

|------------------------------------------------|
|------------------------------------------------|
|-0--0--0--0--1--1--1--1--2--2--2--2--3--3--3--3-|
|------------------------------------------------|
|------------------------------------------------|
|------------------------------------------------|

|------------------------------------------------|
|------------------------------------------------|
|------------------------------------------------|
|-0--0--0--0--1--1--1--1--2--2--2--2--3--3--3--3-|
|------------------------------------------------|
|------------------------------------------------|

|------------------------------------------------|
|------------------------------------------------|
|------------------------------------------------|
|------------------------------------------------|
|-0--0--0--0--1--1--1--1--2--2--2--2--3--3--3--3-|
|------------------------------------------------|

|------------------------------------------------|
|------------------------------------------------|
|------------------------------------------------|
|------------------------------------------------|
|------------------------------------------------|
|-0--0--0--0--1--1--1--1--2--2--2--2--3--3--3--3-|

Catatan :
• Fret 0 senar lepas
• fret 1 ditekan menggunakan jari telunjuk
• fret 2 ditekan menggunakan jari tengah
• fret 3 ditekan menggunakan jari manis
Lakukan latihan di atas pelahan dulu, perhatikan tempo, akurasi petikan maupun penekanan fret. Lalu secara bertahap latih dengan menambah tempo semakin cepat. Jika ada, gunakan metronom untuk melatih tempo, jika tidak, kita dapat menggunakan kaki yang kita ketukkan ke lantai secara konstan.
Latihan 2
Latihan ini untuk melatih picking serta melatih jari kelingking pada tangan kiri.
d petik ke bawah (down)
u petik ke atas (up)
d u d u d u dst
|-1--1--1--1--2--2--2--2--3--3--3--3--4--4--4--4-|
|------------------------------------------------|
|------------------------------------------------|
|------------------------------------------------|
|------------------------------------------------|
|------------------------------------------------|

|------------------------------------------------|
|-1--1--1--1--2--2--2--2--3--3--3--3--4--4--4--4-|
|------------------------------------------------|
|------------------------------------------------|
|------------------------------------------------|
|------------------------------------------------|

|------------------------------------------------|
|------------------------------------------------|
|-1--1--1--1--2--2--2--2--3--3--3--3--4--4--4--4-|
|------------------------------------------------|
|------------------------------------------------|
|------------------------------------------------|

|------------------------------------------------|
|------------------------------------------------|
|------------------------------------------------|
|-1--1--1--1--2--2--2--2--3--3--3--3--4--4--4--4-|
|------------------------------------------------|
|------------------------------------------------|

|------------------------------------------------|
|------------------------------------------------|
|------------------------------------------------|
|------------------------------------------------|
|-1--1--1--1--2--2--2--2--3--3--3--3--4--4--4--4-|
|------------------------------------------------|

|------------------------------------------------|
|------------------------------------------------|
|------------------------------------------------|
|------------------------------------------------|
|------------------------------------------------|
|-1--1--1--1--2--2--2--2--3--3--3--3--4--4--4--4-|

Catatan :
• fret 1 ditekan menggunakan jari telunjuk
• fret 2 ditekan menggunakan jari tengah
• fret 3 ditekan menggunakan jari manis
• fret 4 ditekan menggunakan jari kelingking
Latihlah semakin cepat ! Namun harus akurat dan bersih. Jangan gunakan efek gitar apapun untuk berlatih. Buat variasi latihan sendiri dalam melatih jari tangan.

Sebelumnya perlu diingat
untuk bermain speed kuncinya berada di tangan kanan ( picking ) bukan tangan kiri ( fingering ).
- Kamu harus latihan semuanya ( fingering dan picking ) dalam Tempo yang sangat pelan untuk mendapatkan sinkronisasi tepat serta TONE yang rata di setiap jari.Lalu secara perlahan kecepatannya ditambah sampai kamu masih tetap merasa nyaman dan jujur terhadap dirimu sendiri.jika ada NADA NADA yang kurang rapih atooo masih belom bersih, sebaiknya menurut saya kamu gunakan metronom untuk membantu agar permainan anda bersih dan rapih. dan metronom juga membantu supaya kamu lebih terbiasa dengan ketukan tempo yang teratur.

Picking……
Menurut saya picking adalah cara bagaimana anda memetik senar gitar. Bagi seorang gitaris picking tidak boleh di sepelekan, karena itu ada banyak sekali tipe-tipe picking yang dapat kita pelajari. Saya sendiri bukanlah seorang yang piawai dalam bermusik (terlebih untuk memainkan alat musik gitar) tetapi saya akan coba menjelaskan beberapa tipe picking yang menurut saya hanya ada 2 konsep yaitu picking menggunakan jari (finger picking) dan picking menggunakan alat (Proper picking). Dari kedua konsep dasar picking tersebut maka dapat di ciptakan variasi-variasi picking lainnya yang dapat anda gunakan sesuai kebutuhannya.

Finger Picking  
Finger Picking merupakan suatu cara memetik senar gitar menggunakan jari, dalam penulisan notasi-notasi musik jari kanan dan kiri di bedakan menggunakan simbol huruf dan angka. Jari-jari kiri biasanya di gunakan untuk menekan senar pada fret-fret gitar, sedangkan jari kanan biasanya di gunakan untuk memetik senar-senar tersebut.

Proper Picking
Proper Picking merupakan suatu metode memetik gitar dengan menggunakan alat seperti pick, ada banyak variasi dan tehnik yang dapat di gunakan dan di kembangkan pada metode ini. Saya akan menjelaskan beberapa variasi-variasi proper picking diantaranya :
  • Up-stroke picking = Istilah ini di gunakan apabila anda memetik senar kea rah atas, biasanya di notasikan dalam tablature berbentuk karakter V
  • Down-stroke Picking = istilah ini di gunakan apabila anda memetik senar kea rah bawah, biasanya di notasikan dalam tablature berbentuk karakter ^
  • Arternate Picking = Merupakan gabungan dari upstroke picking dan downstroke picking yaitu memetik senar kea rah atas dan bawah. Picking jenis ini paling sering di gunakan karena dapat memetik senar lebih cepat di bandingkan bila anda hanya menggunakan up-stoke saja ataupun down-storoke saja
  • Economic Picking = Variasi tehnih picking untuk permainan permainan solo cepat, economic hampir sama dengan arternate picking, yang membedakan economic dapat membunyikan 2 nada pada 2 senar yang berbeda menjadi satu kali petikan
  • Circle Picking = Kadang ada juga yang menyatakan kalau circle picking sama dengan economic picking, tapi saya membedakannya karena pada circle picking memetikan senar dengan cara memutar seperti lingkaran sehingga dapt menghasilkan suara lebih halus (Anda boleh kok tidak sependapat dengan saya :D)
  • Sweep Picking = bias juga di sebut arpeggio picking. Variasi ini di gunakan untuk memetik beberapa senar gitar sekaligus, dengan cara memetikan senar kebawah saja atau keatas saja.
  • Tremolo Picking = Sama dengan arternate picking, variasi tremolo biasanya bisa di bedakan ketika ada 1 nada di petik secara sering (berulang-ulang) dan cepat.
  • Harmonic Picking = Variasi picking untuk mengkasilkan nada-nada harmonic. Silahkan lihat dan dengarkan suara gitar yang di hasilkan dari video berikut.
Masih banyak lagi variasi-variasi picking yang lain, mungkin ada yang bisa bantu menambahkan….
 
Share this post
  • Share to Facebook
  • Share to Twitter
  • Share to Google+
  • Share to Stumble Upon
  • Share to Evernote
  • Share to Blogger
  • Share to Email
  • Share to Yahoo Messenger
  • More...

5 komentar

  1. kk ,caranya ganti point view buat blogspot ya apa ?

    ReplyDelete
  2. nice info...
    bagi pengunjung yg ingin memperdalam permainan gitar dan mengunduh pelajaran gitar dlm bhs.Indonesia GRATIS di www.gitarzoom.blogspot.com
    trims

    ReplyDelete
  3. nice artikel bro :)
    kunjungi juga ya blog musik saya dan jangan lupa follow back nya :d
    jordanvengeance.blogspot.com

    ReplyDelete
  4. Perbedaan suara antara upstroke dan downstroke apa gan?

    ReplyDelete

:) :-) :)) =)) :( :-( :(( :d :-d @-) :p :o :>) (o) [-( :-? (p) :-s (m) 8-) :-t :-b b-( :-# =p~ :-$ (b) (f) x-) (k) (h) (c) cheer

 
© cintheteun
Designed by 0661 Cooperated with 0661
Released under Creative Commons 3.0 CC BY-NC 3.0
Posts RSSComments RSS
Back to top